Fret-Buzz: Johnny B. Goode

Difficulty: medium | Guitar used: Fender Telecaster | Tuning: Standard

The intro in Chuck Berry’s 1958 hit is a great little lick to learn. As Marty Mcfly said in back to the future: “All right guys, it’s a blues riff in B, watch me for the changes and try and keep up, OK?

|----------5s6-6-6-5s6-6-6-6-6-6------------------------------------|
|-------6--5s6-6-6-5s6-6-6-6-6-6-9-8-6-6----------------------------|
|---6h7--------------------------------6h7--------------------------|
|-/8----------------------------------------8-6-/8-8-8-/8-8-8-8-8---|
|-----------------------------------------------/8-8-8-/8-8-8-8-8---|
|-------------------------------------------------------------------|

|----------------------6-------6-------6--------6--|
|-6-----6--------------6-------6-------6--------6--|
|-6-7-8-6h7----6h8b9b10----8b10----8b10-----8b10---|
|------------8-------------------------------------|
|--------------------------------------------------|
|--------------------------------------------------|
Advertisements

Leave a Reply

Fill in your details below or click an icon to log in:

WordPress.com Logo

You are commenting using your WordPress.com account. Log Out / Change )

Twitter picture

You are commenting using your Twitter account. Log Out / Change )

Facebook photo

You are commenting using your Facebook account. Log Out / Change )

Google+ photo

You are commenting using your Google+ account. Log Out / Change )

Connecting to %s

%d bloggers like this: